Cancionero La Coru%80%A0%A0%F1a

  • View
    215

  • Download
    0

Embed Size (px)

Text of Cancionero La Coru%80%A0%A0%F1a

  • 8/14/2019 Cancionero La Coru%80%A0%A0%F1a

    1/51

    #########################################################################

    ## ##

    ## Infor-Tuna, Tuna de Inform tica da Universidade da Corua ##

    ## ##

    ## Archivo musical ##

    ## ##

    #########################################################################

    {Inicio}

    {InicioInformacin}

    {Ttulo: La boliviana}

    {Autor: Autor}

    {Ritmo: Ritmo}

    {FinInformacin}

    {InicioAcordes}

    {Acorde: Do M-332010}

    {Acorde: Re m-X00231}

    {Acorde: Fa M-133211}

    {Acorde: La M-002220}

    {Acorde: La 7-002020}

    {Acorde: Sib M-X13331}

    {FinAcordes}

    {InicioBandurriaN}|-----------------------------------------------------------------------|

    |-----------------------------------------------------------------------|

    |-----------------------------------------------------------------------|

    |-----------------------------------------------------------------------|

    |-----------------------------------------------------------------------|

    |-----------------------------------------------------------------------|

    {FinBandurriaN}

    {InicioLadN}

    | |

  • 8/14/2019 Cancionero La Coru%80%A0%A0%F1a

    2/51

    | |

    [Re m][Do M][Fa M][Do M][Fa M][La 7][Re m]

    [Do M][Fa M][Do M][Fa M][La 7][Re m]

    [Do M][Fa M][Do M][Fa M][La 7][Re m][La 7][Re m][La 7][Re m]

    Dicen [Re m]que las a[La M]aguas [Re m]crecen

    cuan[Sib M]do [Do M]acaba de llo[Fa M]ver.

    As crecen mis a[La 7]mores

    cuando ya no te puedo [Re m]ver.

    As [Fa M]crecen mis a[La 7]mores

    cuando ya no te puedo [Re m]ver.

    De Bo[Re m]livia vengo[La M]o ba[Re m]jando,

    ay, ay, [Sib M]ay!, [Do M]pobre mi choli[Fa M]ta.

    Sabe dios si volve[La 7]r

    a la tierra donde na[Re m]c.

    Sabe [Fa M]dios si volve[La 7]r

    a la tierra donde na[Re m]c.

    {FinCancin}

    {Fin}

  • 8/14/2019 Cancionero La Coru%80%A0%A0%F1a

    3/51

    #########################################################################

    ## ##

    ## Infor-Tuna, Tuna de Inform tica da Universidade da Corua ##

    ## ##

    ## Archivo musical ##

    ## ##

    #########################################################################

    {Inicio}

    {InicioInformacin}

    {Ttulo: Luna de Espaa}

    {FinInformacin}

    {InicioAcordes}

    {Acorde: Acorde-000000}

    {FinAcordes}

    {InicioBandurriaN}

    |-----------------------------------------------------------------------|

    |-----------------------------------------------------------------------|

    |-----------------------------------------------------------------------|

    |-----------------------------------------------------------------------|

    |-----------------------------------------------------------------------|

    |-----------------------------------------------------------------------|

    {FinBandurriaN}{InicioLadN}

    |-----------------------------------------------------------------------|

    |-----------------------------------------------------------------------|

    |-----------------------------------------------------------------------|

    |-----------------------------------------------------------------------|

    |-----------------------------------------------------------------------|

    |-----------------------------------------------------------------------|

    {FinLadN}

    {InicioCancin}

  • 8/14/2019 Cancionero La Coru%80%A0%A0%F1a

    4/51

    #########################################################################

    ## ##

    ## Infor-Tuna, Tuna de Inform tica da Universidade da Corua ##

    ## ##

    ## Archivo musical ##

    ## ##

    #########################################################################

    {Inicio}

    {InicioInformacin}

    {Ttulo: Miudio}

    {Autor: Autor}

    {Ritmo: Ritmo}

    {FinInformacin}{InicioAcordes}

    {Acorde: Acorde-000000}

    {FinAcordes}

    {InicioBandurria1}

    |-----------------|-----------------|-0-----0---------|---------0-----0-|

    |-----------------|-2---2-0-2---2---|-~-------2-2-2-0-|-2---2---~-------|

    |-----------------|-~-------~---~---|-----------------|-~---~-----------|

    |-x-x-x-x-3---3-3-|-----------------|-----------------|-----------------|

    |---------~-------|-----------------|-----------------|-----------------||-----------------|-----------------|-----------------|-----------------|

    |-----------------|-0-----2-0---0---|-----------------|-----------------|

    |-3-3-3-2-3---3---|-~-------~-----3-|-2---------------|-2---2-0-2---2---|

    |---------~---~---|-----------------|-~---------------|-~-------~---~---|

    |-----------------|-----------------|---------3---3-3-|-----------------|

    |-----------------|-----------------|---------~-------|-----------------|

    | | | | |

  • 8/14/2019 Cancionero La Coru%80%A0%A0%F1a

    5/51

    /---------\

    |-2-4-2-0-2---2-0-|---------0-2-0---|-0---0-----------|-----------------|

    |---------~-------|-3-------------3-|-~-----3-2-------|-2---------------|

    |-----------------|-~---------------|---------~-------|-~-----------3---|

    |-----------------|-----------------|-----------------|-----------------|

    |-----------------|-----------------|-----------------|-----------------|

    |-----------------|-----------------|-----------------|-----------------|

    /---------\

    |-2-------2-------|-2---x-2-2---2-2-|-2---0-2-4-------|-4-----------0---|

    |-~-------~-------|-~-------~-------|-~-------~-------|-~---------------|

    |-----------------|-----------------|-----------------|-----------------||-----------------|-----------------|-----------------|-----------------|

    |-----------------|-----------------|-----------------|-----------------|

    |-----------------|-----------------|-----------------|-----------------|

    /---------\

    |-4-------4-------|-4-------5---4-2-|-5---4-2-0-------|-2-4-2-0-2---2-0-|

    |-~-------~-------|-~-------~-------|-~-------~-------|---------~-------|

    |-----------------|-----------------|-----------------|-----------------|

    |-----------------|-----------------|-----------------|-----------------||-----------------|-----------------|-----------------|-----------------|

    |-----------------|-----------------|-----------------|-----------------|

    /---------\

    |---------0-2-0---|-0---0-----------|-----------------||

    |-3-------------3-|-~-----3-2-------|-2-----------x-x-||

    |-~---------------|---------~-------|-~---------------||

    |-----------------|-----------------|-----------------||

    | | | ||

  • 8/14/2019 Cancionero La Coru%80%A0%A0%F1a

    6/51

    /---------\ /--------

    |-----------------|-----------------|-----x-----------|---------0-------|

    |-----------------|-3-------3-------|-3-----3-3---3-3-|-3---2-3-~-------|

    |-3-----------1---|-~-------~-------|-~-------~-------|-~---------------|

    |-~---------------|-----------------|-----------------|-----------------|

    |-----------------|-----------------|-----------------|-----------------|

    |-----------------|-----------------|-----------------|-----------------|

    --\ /---------\

    |-0---------------|-0-------0-------|-0-------2---0---|-2---0-----------|

    |-~-----------0---|-~-------~-------|-~-------~-----3-|-~-----3-2-------|

    |-----------------|-----------------|-----------------|---------~-------||-----------------|-----------------|-----------------|-----------------|

    |-----------------|-----------------|-----------------|-----------------|

    |-----------------|-----------------|-----------------|-----------------|

    /---------\

    |---0-------------|-----------------|-----------------|-----------------|

    |-3---3-2-3---3-2-|-0-------2-3-2-0-|-2---2-0---------|-----------------|

    |---------~-------|-~---------------|-~-------3-------|-3-----------1---|

    |-----------------|-----------------|---------~-------|-~---------------||-----------------|-----------------|-----------------|-----------------|

    |-----------------|-----------------|-----------------|-----------------|

    /---------\

    |-----------------|-----------------|---------0-------|-0---------------|

    |-3-------3-------|-3---x-3-3---3-3-|-3---2-3-~-------|-~-----------2---|

    |-~-------~-------|-~-------~-------|-~---------------|-----------------|

    |-----------------|-----------------|-----------------|-----------------|

    | | | | |

  • 8/14/2019 Cancionero La Coru%80%A0%A0%F1a

    7/51

    de vio, que auga non [Re M]bebo, mira

    mira Maru[La M]xia, mira, mira como [Re M]veo.

    Eu [Sol M]traio unha borra[La M]cheira,

    de vio, que auga non [Re M]bebo, mira

    mira Maru[La M]xia, mira, mira como [Re M]veo.

    {FinCancin}

    {Fin}

  • 8/14/2019 Cancionero La Coru%80%A0%A0%F1a

    8/51

    #########################################################################

    ## ##

    ## Infor-Tuna, Tuna de Inform tica da Universidade da Corua ##

    ## ##

    ## Archivo musical ##

    ## ##

    #########################################################################

    {Inicio}

    {InicioInformacin}

    {Ttulo: La morena de mi copla}

    {Autor: Autor}

    {Ritmo: Ritmo}

    {FinInformacin}{InicioAcordes}

    {Acorde: Acorde-000000}

    {FinAcordes}

    {InicioBandurriaN}

    x x x x x x x x

    x x x x x x x x x x x x x x x x

    |-x-x-x-x-x-x-x-x-x-x-x-x-x-x-x-x-|-x-x-x-x-x-x-x-x-x-x-x-x-x-x-x-x-|

    |---------------------------0-2-3-|-7-------------------5---8---5---|

    |-x-x-x-x-x-x-x-x-x-x-0-2-4-------|-~-

Search related